0
SECTION
2
HEADER
9
$MEASUREMENT
70
0
9
$INSUNITS
70
1
0
ENDSEC
0
SECTION
2
ENTITIES
0
POLYLINE
100
AcDbEntity
8
BOARD
6
BYLAYER
62
256
100
AcDb2dPolyline
70
128
75
5
66
1
39
0.005
40
0.005
41
0.005
0
VERTEX
100
AcDbEntity
8
BOARD
100
AcDbVertex
10
0
20
0
0
VERTEX
100
AcDbEntity
8
BOARD
100
AcDbVertex
10
6
20
0
0
SEQEND
0
POLYLINE
100
AcDbEntity
8
BOARD
6
BYLAYER
62
256
100
AcDb2dPolyline
70
128
75
5
66
1
39
0.005
40
0.005
41
0.005
0
VERTEX
100
AcDbEntity
8
BOARD
100
AcDbVertex
10
6
20
0
0
VERTEX
100
AcDbEntity
8
BOARD
100
AcDbVertex
10
6
20
6
0
SEQEND
0
POLYLINE
100
AcDbEntity
8
BOARD
6
BYLAYER
62
256
100
AcDb2dPolyline
70
128
75
5
66
1
39
0.005
40
0.005
41
0.005
0
VERTEX
100
AcDbEntity
8
BOARD
100
AcDbVertex
10
0
20
6
0
VERTEX
100
AcDbEntity
8
BOARD
100
AcDbVertex
10
6
20
6
0
SEQEND
0
POLYLINE
100
AcDbEntity
8
BOARD
6
BYLAYER
62
256
100
AcDb2dPolyline
70
128
75
5
66
1
39
0.005
40
0.005
41
0.005
0
VERTEX
100
AcDbEntity
8
BOARD
100
AcDbVertex
10
0
20
0
0
VERTEX
100
AcDbEntity
8
BOARD
100
AcDbVertex
10
0
20
6
0
SEQEND
0
CIRCLE
100
AcDbEntity
8
BOARD
62
256
100
AcDbCircle
10
0.15789
20
0.199844
40
0.079057
39
0.005
0
CIRCLE
100
AcDbEntity
8
BOARD
62
256
100
AcDbCircle
10
5.8
20
5.8
40
0.079057
39
0.005
0
CIRCLE
100
AcDbEntity
8
BOARD
62
256
100
AcDbCircle
10
0.2
20
5.8
40
0.079057
39
0.005
0
CIRCLE
100
AcDbEntity
8
BOARD
62
256
100
AcDbCircle
10
5.825
20
0.2
40
0.079057
39
0.005
0
CIRCLE
100
AcDbEntity
8
BOARD
62
256
100
AcDbCircle
10
3
20
5.8
40
0.079057
39
0.005
0
CIRCLE
100
AcDbEntity
8
BOARD
62
256
100
AcDbCircle
10
3
20
0.2
40
0.079057
39
0.005
0
CIRCLE
100
AcDbEntity
8
BOARD
62
256
100
AcDbCircle
10
3
20
2.85
40
0.079057
39
0.005
0
CIRCLE
100
AcDbEntity
8
BOARD
62
256
100
AcDbCircle
10
5.525
20
2.875
40
0.079057
39
0.005
0
CIRCLE
100
AcDbEntity
8
BOARD
62
256
100
AcDbCircle
10
0.475
20
2.85
40
0.079057
39
0.005
0
CIRCLE
100
AcDbEntity
8
BOARD
62
256
100
AcDbCircle
10
0.258585
20
4.29533
40
0.039508
0
CIRCLE
100
AcDbEntity
8
BOARD
62
256
100
AcDbCircle
10
3.012057
20
4.705052
40
0.033504
0
CIRCLE
100
AcDbEntity
8
BOARD
62
256
100
AcDbCircle
10
3.578667
20
5.119946
40
0.026004
0
CIRCLE
100
AcDbEntity
8
BOARD
62
256
100
AcDbCircle
10
3.583971
20
4.721569
40
0.026004
0
CIRCLE
100
AcDbEntity
8
BOARD
62
256
100
AcDbCircle
10
4.675
20
0.465
40
0.033504
0
CIRCLE
100
AcDbEntity
8
BOARD
62
256
100
AcDbCircle
10
4.675
20
0.305
40
0.033504
0
CIRCLE
100
AcDbEntity
8
BOARD
62
256
100
AcDbCircle
10
4.525
20
0.465
40
0.033504
0
CIRCLE
100
AcDbEntity
8
BOARD
62
256
100
AcDbCircle
10
4.375
20
0.465
40
0.033504
0
CIRCLE
100
AcDbEntity
8
BOARD
62
256
100
AcDbCircle
10
4.525
20
0.305
40
0.033504
0
CIRCLE
100
AcDbEntity
8
BOARD
62
256
100
AcDbCircle
10
4.375
20
0.305
40
0.033504
0
CIRCLE
100
AcDbEntity
8
BOARD
62
256
100
AcDbCircle
10
2.35
20
2.45
40
0.022992
0
CIRCLE
100
AcDbEntity
8
BOARD
62
256
100
AcDbCircle
10
4.412248
20
4.040086
40
0.039508
0
CIRCLE
100
AcDbEntity
8
BOARD
62
256
100
AcDbCircle
10
4.651137
20
4.136614
40
0.039508
0
CIRCLE
100
AcDbEntity
8
BOARD
62
256
100
AcDbCircle
10
4.772665
20
4.339392
40
0.039508
0
CIRCLE
100
AcDbEntity
8
BOARD
62
256
100
AcDbCircle
10
4.747665
20
4.596336
40
0.039508
0
CIRCLE
100
AcDbEntity
8
BOARD
62
256
100
AcDbCircle
10
2.95
20
2.45
40
0.022992
0
CIRCLE
100
AcDbEntity
8
BOARD
62
256
100
AcDbCircle
10
4.597665
20
4.76092
40
0.039508
0
CIRCLE
100
AcDbEntity
8
BOARD
62
256
100
AcDbCircle
10
4.019887
20
4.28592
40
0.039508
0
CIRCLE
100
AcDbEntity
8
BOARD
62
256
100
AcDbCircle
10
4.340721
20
4.81092
40
0.039508
0
CIRCLE
100
AcDbEntity
8
BOARD
62
256
100
AcDbCircle
10
4.001832
20
4.521336
40
0.039508
0
CIRCLE
100
AcDbEntity
8
BOARD
62
256
100
AcDbCircle
10
4.126137
20
4.724809
40
0.039508
0
CIRCLE
100
AcDbEntity
8
BOARD
62
256
100
AcDbCircle
10
0.543307
20
2.093941
40
0.022992
0
CIRCLE
100
AcDbEntity
8
BOARD
62
256
100
AcDbCircle
10
0.543307
20
0.293941
40
0.022992
0
CIRCLE
100
AcDbEntity
8
BOARD
62
256
100
AcDbCircle
10
0.447127
20
2.4429
40
0.030492
0
CIRCLE
100
AcDbEntity
8
BOARD
62
256
100
AcDbCircle
10
1.10164
20
2.448108
40
0.030492
0
CIRCLE
100
AcDbEntity
8
BOARD
62
256
100
AcDbCircle
10
1.459974
20
2.448108
40
0.030492
0
CIRCLE
100
AcDbEntity
8
BOARD
62
256
100
AcDbCircle
10
2.029418
20
2.45158
40
0.030492
0
CIRCLE
100
AcDbEntity
8
BOARD
62
256
100
AcDbCircle
10
0.25
20
3
40
0.039508
0
CIRCLE
100
AcDbEntity
8
BOARD
62
256
100
AcDbCircle
10
1.25
20
3.1
40
0.022992
0
CIRCLE
100
AcDbEntity
8
BOARD
62
256
100
AcDbCircle
10
0.65
20
3.1
40
0.022992
0
CIRCLE
100
AcDbEntity
8
BOARD
62
256
100
AcDbCircle
10
1.25
20
3.3
40
0.022992
0
CIRCLE
100
AcDbEntity
8
BOARD
62
256
100
AcDbCircle
10
0.65
20
3.3
40
0.022992
0
CIRCLE
100
AcDbEntity
8
BOARD
62
256
100
AcDbCircle
10
1.621528
20
4.029167
40
0.039508
0
CIRCLE
100
AcDbEntity
8
BOARD
62
256
100
AcDbCircle
10
1.860417
20
4.125694
40
0.039508
0
CIRCLE
100
AcDbEntity
8
BOARD
62
256
100
AcDbCircle
10
1.956944
20
4.585417
40
0.039508
0
CIRCLE
100
AcDbEntity
8
BOARD
62
256
100
AcDbCircle
10
1.981944
20
4.328472
40
0.039508
0
CIRCLE
100
AcDbEntity
8
BOARD
62
256
100
AcDbCircle
10
1.229167
20
4.275
40
0.039508
0
CIRCLE
100
AcDbEntity
8
BOARD
62
256
100
AcDbCircle
10
1.806944
20
4.75
40
0.039508
0
CIRCLE
100
AcDbEntity
8
BOARD
62
256
100
AcDbCircle
10
1.211111
20
4.510417
40
0.039508
0
CIRCLE
100
AcDbEntity
8
BOARD
62
256
100
AcDbCircle
10
1.55
20
4.8
40
0.039508
0
CIRCLE
100
AcDbEntity
8
BOARD
62
256
100
AcDbCircle
10
1.335417
20
4.713889
40
0.039508
0
CIRCLE
100
AcDbEntity
8
BOARD
62
256
100
AcDbCircle
10
0.65
20
5.65
40
0.080512
0
CIRCLE
100
AcDbEntity
8
BOARD
62
256
100
AcDbCircle
10
1.375
20
5.65
40
0.080512
0
CIRCLE
100
AcDbEntity
8
BOARD
62
256
100
AcDbCircle
10
5.35
20
5.65
40
0.080512
0
CIRCLE
100
AcDbEntity
8
BOARD
62
256
100
AcDbCircle
10
4.625
20
5.65
40
0.080512
0
CIRCLE
100
AcDbEntity
8
BOARD
62
256
100
AcDbCircle
10
0.25
20
3.3
40
0.039508
0
CIRCLE
100
AcDbEntity
8
BOARD
62
256
100
AcDbCircle
10
0.25
20
3.6
40
0.039508
0
CIRCLE
100
AcDbEntity
8
BOARD
62
256
100
AcDbCircle
10
0.25
20
3.9
40
0.039508
0
CIRCLE
100
AcDbEntity
8
BOARD
62
256
100
AcDbCircle
10
4.787248
20
1.938698
40
0.039508
0
CIRCLE
100
AcDbEntity
8
BOARD
62
256
100
AcDbCircle
10
4.762248
20
2.195642
40
0.039508
0
CIRCLE
100
AcDbEntity
8
BOARD
62
256
100
AcDbCircle
10
4.426832
20
1.639392
40
0.039508
0
CIRCLE
100
AcDbEntity
8
BOARD
62
256
100
AcDbCircle
10
4.034471
20
1.885225
40
0.039508
0
CIRCLE
100
AcDbEntity
8
BOARD
62
256
100
AcDbCircle
10
4.612248
20
2.360225
40
0.039508
0
CIRCLE
100
AcDbEntity
8
BOARD
62
256
100
AcDbCircle
10
4.665721
20
1.73592
40
0.039508
0
CIRCLE
100
AcDbEntity
8
BOARD
62
256
100
AcDbCircle
10
4.355304
20
2.410225
40
0.039508
0
CIRCLE
100
AcDbEntity
8
BOARD
62
256
100
AcDbCircle
10
4.016415
20
2.120642
40
0.039508
0
CIRCLE
100
AcDbEntity
8
BOARD
62
256
100
AcDbCircle
10
4.140721
20
2.324114
40
0.039508
0
CIRCLE
100
AcDbEntity
8
BOARD
62
256
100
AcDbCircle
10
2.956944
20
2.643056
40
0.022992
0
CIRCLE
100
AcDbEntity
8
BOARD
62
256
100
AcDbCircle
10
2.35
20
2.65
40
0.022992
0
CIRCLE
100
AcDbEntity
8
BOARD
62
256
100
AcDbCircle
10
3.45
20
0.3
40
0.033504
0
CIRCLE
100
AcDbEntity
8
BOARD
62
256
100
AcDbCircle
10
3.45
20
2.1
40
0.033504
0
CIRCLE
100
AcDbEntity
8
BOARD
62
256
100
AcDbCircle
10
5.375
20
0.3
40
0.033504
0
CIRCLE
100
AcDbEntity
8
BOARD
62
256
100
AcDbCircle
10
5.375
20
2.1
40
0.033504
0
CIRCLE
100
AcDbEntity
8
BOARD
62
256
100
AcDbCircle
10
2.025
20
2.1
40
0.033504
0
CIRCLE
100
AcDbEntity
8
BOARD
62
256
100
AcDbCircle
10
2.4
20
2.1
40
0.033504
0
CIRCLE
100
AcDbEntity
8
BOARD
62
256
100
AcDbCircle
10
3.35164
20
4.648108
40
0.030492
0
CIRCLE
100
AcDbEntity
8
BOARD
62
256
100
AcDbCircle
10
2.650252
20
4.648108
40
0.030492
0
CIRCLE
100
AcDbEntity
8
BOARD
62
256
100
AcDbCircle
10
3.35164
20
4.273108
40
0.030492
0
CIRCLE
100
AcDbEntity
8
BOARD
62
256
100
AcDbCircle
10
2.650252
20
4.273108
40
0.030492
0
CIRCLE
100
AcDbEntity
8
BOARD
62
256
100
AcDbCircle
10
3.75
20
3.190278
40
0.033504
0
CIRCLE
100
AcDbEntity
8
BOARD
62
256
100
AcDbCircle
10
5.480556
20
3.183333
40
0.033504
0
CIRCLE
100
AcDbEntity
8
BOARD
62
256
100
AcDbCircle
10
3.55
20
3.225
40
0.033504
0
CIRCLE
100
AcDbEntity
8
BOARD
62
256
100
AcDbCircle
10
1.833333
20
3.225
40
0.033504
0
CIRCLE
100
AcDbEntity
8
BOARD
62
256
100
AcDbCircle
10
2.95
20
3.225
40
0.033504
0
CIRCLE
100
AcDbEntity
8
BOARD
62
256
100
AcDbCircle
10
2.375
20
3.225
40
0.033504
0
CIRCLE
100
AcDbEntity
8
BOARD
62
256
100
AcDbCircle
10
4.95
20
3.183333
40
0.033504
0
CIRCLE
100
AcDbEntity
8
BOARD
62
256
100
AcDbCircle
10
4.375
20
3.190278
40
0.033504
0
CIRCLE
100
AcDbEntity
8
BOARD
62
256
100
AcDbCircle
10
4.15
20
1.375
40
0.022992
0
CIRCLE
100
AcDbEntity
8
BOARD
62
256
100
AcDbCircle
10
4.15
20
0.775
40
0.022992
0
CIRCLE
100
AcDbEntity
8
BOARD
62
256
100
AcDbCircle
10
5.55
20
2.45
40
0.022992
0
CIRCLE
100
AcDbEntity
8
BOARD
62
256
100
AcDbCircle
10
4.95
20
2.45
40
0.022992
0
CIRCLE
100
AcDbEntity
8
BOARD
62
256
100
AcDbCircle
10
4.65
20
1.375
40
0.022992
0
CIRCLE
100
AcDbEntity
8
BOARD
62
256
100
AcDbCircle
10
4.65
20
0.775
40
0.022992
0
CIRCLE
100
AcDbEntity
8
BOARD
62
256
100
AcDbCircle
10
3.85
20
2.45
40
0.022992
0
CIRCLE
100
AcDbEntity
8
BOARD
62
256
100
AcDbCircle
10
3.25
20
2.45
40
0.022992
0
CIRCLE
100
AcDbEntity
8
BOARD
62
256
100
AcDbCircle
10
3.975
20
0.775
40
0.022992
0
CIRCLE
100
AcDbEntity
8
BOARD
62
256
100
AcDbCircle
10
3.975
20
1.375
40
0.022992
0
CIRCLE
100
AcDbEntity
8
BOARD
62
256
100
AcDbCircle
10
4.825
20
0.775
40
0.022992
0
CIRCLE
100
AcDbEntity
8
BOARD
62
256
100
AcDbCircle
10
4.825
20
1.375
40
0.022992
0
CIRCLE
100
AcDbEntity
8
BOARD
62
256
100
AcDbCircle
10
3.8
20
1.425
40
0.022992
0
CIRCLE
100
AcDbEntity
8
BOARD
62
256
100
AcDbCircle
10
3.8
20
2.025
40
0.022992
0
CIRCLE
100
AcDbEntity
8
BOARD
62
256
100
AcDbCircle
10
5
20
1.425
40
0.022992
0
CIRCLE
100
AcDbEntity
8
BOARD
62
256
100
AcDbCircle
10
5
20
2.025
40
0.022992
0
CIRCLE
100
AcDbEntity
8
BOARD
62
256
100
AcDbCircle
10
2.025
20
0.3
40
0.033504
0
CIRCLE
100
AcDbEntity
8
BOARD
62
256
100
AcDbCircle
10
2.4
20
0.3
40
0.033504
0
CIRCLE
100
AcDbEntity
8
BOARD
62
256
100
AcDbCircle
10
0.243056
20
4.673611
40
0.039508
0
CIRCLE
100
AcDbEntity
8
BOARD
62
256
100
AcDbCircle
10
0.243056
20
4.973611
40
0.039508
0
CIRCLE
100
AcDbEntity
8
BOARD
62
256
100
AcDbCircle
10
2.149306
20
3.518056
40
0.030492
0
CIRCLE
100
AcDbEntity
8
BOARD
62
256
100
AcDbCircle
10
1.619792
20
3.525
40
0.030492
0
CIRCLE
100
AcDbEntity
8
BOARD
62
256
100
AcDbCircle
10
5.8
20
3.95
40
0.039508
0
CIRCLE
100
AcDbEntity
8
BOARD
62
256
100
AcDbCircle
10
5.8
20
4.25
40
0.039508
0
CIRCLE
100
AcDbEntity
8
BOARD
62
256
100
AcDbCircle
10
5.8
20
4.9
40
0.039508
0
CIRCLE
100
AcDbEntity
8
BOARD
62
256
100
AcDbCircle
10
5.8
20
4.6
40
0.039508
0
CIRCLE
100
AcDbEntity
8
BOARD
62
256
100
AcDbCircle
10
5.8
20
2.6
40
0.039508
0
CIRCLE
100
AcDbEntity
8
BOARD
62
256
100
AcDbCircle
10
5.8
20
2.9
40
0.039508
0
CIRCLE
100
AcDbEntity
8
BOARD
62
256
100
AcDbCircle
10
5.8
20
3.55
40
0.039508
0
CIRCLE
100
AcDbEntity
8
BOARD
62
256
100
AcDbCircle
10
5.8
20
3.25
40
0.039508
0
CIRCLE
100
AcDbEntity
8
BOARD
62
256
100
AcDbCircle
10
4.573863
20
3.597761
40
0.030492
0
CIRCLE
100
AcDbEntity
8
BOARD
62
256
100
AcDbCircle
10
4.059974
20
3.606441
40
0.030492
0
CIRCLE
100
AcDbEntity
8
BOARD
62
256
100
AcDbCircle
10
2.905304
20
4.835225
40
0.026004
0
CIRCLE
100
AcDbEntity
8
BOARD
62
256
100
AcDbCircle
10
3.105304
20
4.835225
40
0.026004
0
CIRCLE
100
AcDbEntity
8
BOARD
62
256
100
AcDbCircle
10
3.1
20
5.1
40
0.026004
0
CIRCLE
100
AcDbEntity
8
BOARD
62
256
100
AcDbCircle
10
2.9
20
5.1
40
0.026004
0
CIRCLE
100
AcDbEntity
8
BOARD
62
256
100
AcDbCircle
10
4.816667
20
2.698611
40
0.026004
0
CIRCLE
100
AcDbEntity
8
BOARD
62
256
100
AcDbCircle
10
4.419444
20
2.691667
40
0.026004
0
CIRCLE
100
AcDbEntity
8
BOARD
62
256
100
AcDbCircle
10
4.675
20
5.05
40
0.030492
0
CIRCLE
100
AcDbEntity
8
BOARD
62
256
100
AcDbCircle
10
4.275
20
5.413844
40
0.030492
0
CIRCLE
100
AcDbEntity
8
BOARD
62
256
100
AcDbCircle
10
3.863889
20
3.608681
40
0.030492
0
CIRCLE
100
AcDbEntity
8
BOARD
62
256
100
AcDbCircle
10
3.35
20
3.6
40
0.030492
0
CIRCLE
100
AcDbEntity
8
BOARD
62
256
100
AcDbCircle
10
3.124306
20
3.603472
40
0.030492
0
CIRCLE
100
AcDbEntity
8
BOARD
62
256
100
AcDbCircle
10
2.6
20
3.6
40
0.030492
0
CIRCLE
100
AcDbEntity
8
BOARD
62
256
100
AcDbCircle
10
0.983836
20
4.248863
40
0.030492
0
CIRCLE
100
AcDbEntity
8
BOARD
62
256
100
AcDbCircle
10
0.975
20
3.685937
40
0.030492
0
CIRCLE
100
AcDbEntity
8
BOARD
62
256
100
AcDbCircle
10
3.75
20
4.55
40
0.030492
0
CIRCLE
100
AcDbEntity
8
BOARD
62
256
100
AcDbCircle
10
3.751892
20
4.009974
40
0.030492
0
CIRCLE
100
AcDbEntity
8
BOARD
62
256
100
AcDbCircle
10
3.125
20
3.05
40
0.030492
0
CIRCLE
100
AcDbEntity
8
BOARD
62
256
100
AcDbCircle
10
5.055709
20
3.399266
40
0.030492
0
CIRCLE
100
AcDbEntity
8
BOARD
62
256
100
AcDbCircle
10
4.426022
20
3.40621
40
0.030492
0
CIRCLE
100
AcDbEntity
8
BOARD
62
256
100
AcDbCircle
10
5.208413
20
3.631958
40
0.030492
0
CIRCLE
100
AcDbEntity
8
BOARD
62
256
100
AcDbCircle
10
4.715578
20
3.63923
40
0.030492
0
CIRCLE
100
AcDbEntity
8
BOARD
62
256
100
AcDbCircle
10
3.225974
20
5.659219
40
0.0625
0
CIRCLE
100
AcDbEntity
8
BOARD
62
256
100
AcDbCircle
10
3.442974
20
5.849136
40
0.0625
0
CIRCLE
100
AcDbEntity
8
BOARD
62
256
100
AcDbCircle
10
3.442974
20
5.659219
40
0.033504
0
CIRCLE
100
AcDbEntity
8
BOARD
62
256
100
AcDbCircle
10
3.659974
20
5.659219
40
0.0625
0
CIRCLE
100
AcDbEntity
8
BOARD
62
256
100
AcDbCircle
10
2.344724
20
5.659219
40
0.0625
0
CIRCLE
100
AcDbEntity
8
BOARD
62
256
100
AcDbCircle
10
2.561724
20
5.849136
40
0.0625
0
CIRCLE
100
AcDbEntity
8
BOARD
62
256
100
AcDbCircle
10
2.561724
20
5.659219
40
0.033504
0
CIRCLE
100
AcDbEntity
8
BOARD
62
256
100
AcDbCircle
10
2.778724
20
5.659219
40
0.0625
0
CIRCLE
100
AcDbEntity
8
BOARD
62
256
100
AcDbCircle
10
1.258585
20
2.093941
40
0.022992
0
CIRCLE
100
AcDbEntity
8
BOARD
62
256
100
AcDbCircle
10
1.258585
20
0.293941
40
0.022992
0
ENDSEC
0
EOF
